BlessedBeYourName

“Blessed Be Your Name”
Guitar chords and tab
Tabbed by:Desi Serna
http://Guitar-Music-Theory.com

Key of A

http://www.youtube.com/cp/vjVQa1PpcFMTUenkIplSWFNOVs9S_YrBZf2tQRe9jzc=

“Blessed Be Your Name” by Matt Redman guitar theory lesson. Learn what chords

and scales this popular Christian praise and worship guitar song uses including

pentatonic and major scale patterns, CAGED chord inversions and arpeggio patterns.

Also, learn about how to use effects such as distortion, delay, and volume pedal.

Play-along jam track

PARTS 1-3 23:44 TOTAL

Taught by Desi Serna author of Fretboard Theory.

ACOUSTIC GUITAR          ELECTRIC GUITAR

     A    E    F#m  D         A     E     F#m   D
E----0----0----2----2----|----9-----12----9-----10------------------------------|
B----2----0----2----3----|----10----9-----10----10------------------------------|
G----2----1----2----2----|----9-----9-----11----11------------------------------|
D----2----2----4----0----|----11----9-----11----12------------------------------|
A----0----2----4---------|----12----11----9-----12------------------------------|
E---------0----2---------|----------12----------10------------------------------|

A       E                   F#m          D
Blessed be Your name in the land that is plentiful
           A           E
Where Your streams of abundance flow
        D
Blessed be Your name

A           E                     F#m          D
And blessed be Your name when I'm found in the desert place
         A                E
Though I walk through the wilderness
        D
Blessed be Your name

A              E
Every blessing You pour out I'll
F#m          D
turn back to praise
A                     E
And when the darkness closes in, Lord
F#m          D
Still I will say

               A           E
Blessed be the name of the Lord
                F#m     D
Blessed be Your name
               A           E
Blessed be the name of the Lord
                F#m   E  D
Blessed be Your glorious name

Blessed be Your name when the sun's shining down on me
When the world's "all as it should be"
Blessed be Your name
And blessed be Your name on the road marked with suffering
Though there's pain in the offering
Blessed be Your name

A                  E
You give and take away
    F#m            D
You give and take away
   A                    E
My heart will choose to say
      F#m             D
Lord, blessed be Your name

VOCAL MELODY (A MAJOR SCALE PATTERN 3)

VERSE (X2)
E-------------------------------------------------------------------------------|
B-------------------------------------------------------------------------------|
G--------9------9----9---------------------9-------9--9-------------------------|
D---11-------12-----------11-9---11---11------12--------------------------------|
A-------------------------------------------------------------------------------|
E-------------------------------------------------------------------------------|
    Bles-sed be Your name in the land that is plen-ti-ful

E-------------------------------------------------------------------------------|
B-------------------------------------------------------------------------------|
G-------------------------9-----9-----9-----------------------------------------|
D---11----9----11------11---12----------------11---9---11-9----12---------------|
A-------------------------------------------------------------------------------|
E-------------------------------------------------------------------------------|
    Where Your streams of a-bun-dance flow    Bles-sed be Your name (X2)

PRE-CHORUS
E-------------------------------------------------------------------------------|
B---10--10-10------------------9--10------12---12--10---------------------------|
G---------------9----9---11----------------------------11-----------------------|
D-------------------------------------------------------------------------------|
A-------------------------------------------------------------------------------|
E-------------------------------------------------------------------------------|
    Eve-ry bles-sing You pour out I'll    turn back to praise

E-------------------------------------------------------------------------------|
B-------10--10---10----------------9--10-------12---12--10----------------------|
G---9----------------9-----9---11---------------------------11------------------|
D-------------------------------------------------------------------------------|
A-------------------------------------------------------------------------------|
E-------------------------------------------------------------------------------|
   And when the dark-ness clos-es in, Lord     Still I will say

CHORUS
E---9-----------------------------------9---------------------------------------|
B--------12-12--10--10---10-12--12-----------12-12--10---10---------------------|
G-------------------------------------------------------------------------------|
D-------------------------------------------------------------------------------|
A-------------------------------------------------------------------------------|
E-------------------------------------------------------------------------------|
   Bles-sed be the name of the Lord     Bles-sed be Your name

E---9-----------------------------------9----------------9--10-9----------------|
B--------12-12--10--10---10-12--12-----------12--12-10------------12-10---------|
G-------------------------------------------------------------------------------|
D-------------------------------------------------------------------------------|
A-------------------------------------------------------------------------------|
E-------------------------------------------------------------------------------|
   Bles-sed be the name of the Lord     Bles-sed be Your gl-or-i-ous name

BRIDGE
E-------9----9---9-----------------9----9---9-----------------------------------|
B---10----------------12-12----10----------------12-12-10-----------------------|
G-------------------------------------------------------------------------------|
D-------------------------------------------------------------------------------|
A-------------------------------------------------------------------------------|
E-------------------------------------------------------------------------------|
    You give and take a-way    You give and take a-wa-y

E-------9-----9---9---------------------9----9---9------------------------------|
B---10-------------------12-12----10----------------12---12-10------------------|
G-------------------------------------------------------------------------------|
D-------------------------------------------------------------------------------|
A-------------------------------------------------------------------------------|
E-------------------------------------------------------------------------------|
    My heart will choose to say  Lord, bles-sed be Your n-ame

		This file is my own work and represents my interpretation of the song.

		You may only use this file for private study, scholarship, or research.

Everything about evolution is true, EXCEPT for the idea that it produces EVOLUTION. Will the Real Jesus Please stand up?