Podcast Episode 17: Pentatonic Lead Patterns

Category : Blog

When it comes to using the pentatonic scale to play melodies, riffs, lead guitar solos, and bass lines, it’s not necessary to utilize every position or every part of every pattern. Most guitar players, including some of the most famous ones, favor only a few particular sections of these different patterns that work well together. When viewed together, these sections are sometimes called “lead patterns.” Continue Reading

Let the Praises Ring Guitar Solo Tab

Category : Video

The guitar solo to “Let the Praises Ring” by Lincoln Brewtser is a great example of using guitar major scale patterns and alternate picking technique. This lesson is suitable for intermediate and advanced level guitarists who want to play lead guitar solos.

E Major Scale

E--0--2--4--5--7--9--11--12--12--11--9--7--5--4--2--0-|
B-----------------------------------------------------|
G-----------------------------------------------------|
D-----------------------------------------------------|
A-----------------------------------------------------|
E-----------------------------------------------------|

Guitar Solo

E-12-11-12-0--7-5-7-0--9-7-9-0--5-4-5-0--7-5-7-0------|
B-----------------------------------------------------|
G-----------------------------------------------------|
D-----------------------------------------------------|
A-----------------------------------------------------|
E-----------------------------------------------------|

E-4-2-4-0--5-4-5-0--2-0-2-0--4-0--4-2-4-0--5-4-5-0----|
B-----------------------------------------------------|
G-----------------------------------------------------|
D-----------------------------------------------------|
A-----------------------------------------------------|
E-----------------------------------------------------|

E-7-5-7-0--9-7-9-0------------------------------------|
B-----------------------------------------------------|
G-----------------------------------------------------|
D-----------------------------------------------------|
A-----------------------------------------------------|
E-----------------------------------------------------|

1st Ending

E-12-0-7-0-9-0-5-0-7-0-4-0-5-0------------------------|
B-----------------------------------------------------|
G-----------------------------------------------------|
D-----------------------------------------------------|
A-----------------------------------------------------|
E-----------------------------------------------------|

2nd Ending

E-17p16p14---16p14------------------------------------|
B---------17-------17p14----17----16b(17)-------------|
G------------------------16----16---------------------|
D-----------------------------------------------------|
A-----------------------------------------------------|
E-----------------------------------------------------|

Lincoln Brewster’s Instructional Videos
Learn exactly how Lincoln himself plays “Let the Praises Ring” along with several of his other hits.

Easter Message From Desi
You know, all of us have questions and doubts about, and even outright objections to, the Bible. While the Bible has much to say and provides lots of answers, it can be difficult to understand and hard to trust for many people. But there’s one overriding fact about Christianity, and history, that we all must contend with: Jesus rose from the dead.

Jesus was a real person. He claimed to be God and, according to all the historical and circumstantial evidence, proved his claim to be true. This sets Christianity apart from every other belief system.

“Did Jesus really exist? Is there any historical evidence of Jesus Christ?”
http://www.gotquestions.org/did-Jesus-exist.html

“Why should I believe in Christ’s resurrection?”
http://www.gotquestions.org/why-believe-resurrection.html

This Easter I encourage you to learn about why people believe Jesus and embrace the Bible. If you do, I know it’ll be a blessing to you.

Play Until Yer Fingers Bleed!
Mr. Desi Serna
Website: http://Guitar-Music-Theory.com
Facebook: http://facebook.com/guitarmusictheory
Twitter: http://twitter.com/MrGuitarTheory
YouTube: http://youtube.com/GuitarMusicTheoryTab
Podcast: http://bit.ly/ac4cDk